Elõadó: Sear Bliss
Lemez: Phantoms
Nóta: 1100 years ago
Hangszer: Gitár
Stílus: ~black
Hangolás: lásd notes
Honlap / Borító
Szöveg / Zene
Beírta: Stukas87
Feltöltötte: necrolust

Notes: -Tune down half Step to Eb
-If not indicated both guitars play the same
. - mute
/ - slide up
^ - hammer on


(0.00-0.29)-Riff 1
Eb[--------------------------------------------------------------]
Bb[--------------------------------------------------------------]
Gb[-----9999999999--7777777777--9999999999--101010-121212--------]
Db[-----9999999999--7777777777--9999999999--101010-121212--------]
Ab[-----7777777777--5555555555--7777777777---8-8-8-101010--------]
Eb[-----7777777777--5555555555--7777777777---8-8-8-101010--------]



(0.30-0.34)-Bass:
Ab[---7-7777---332200000000----------------------]
Eb[-------------------------33332222-------------]



(0.34-1.24)-Riff 2
Guitar 1:
Eb[-------------------------------------------------------------------------]
Bb[-------------------------------------------------------------------------]
Gb[-------------------------------------------------------------------------]
Db[-------------------------------------------------------------------------]
Ab[-77777777-999-1010101010101010-1212121212121212-1010101010-9999-101010-99]
Eb[-------------------------------------------------------------------------]

Guitar 2:
Eb[-------------------------------------------------------------------------]
Bb[-------------------------------------------------------------------------]
Gb[-------------------------------------------------------------------------]
Db[-------------------------------------------------------------------------]
Ab[---------------777777-333333-222222-0000000000000------------------------]
Eb[-0000000000000---------------------------------------333333-222222-------]
............. .............



(1.25-2.02)-Riff 3
Eb[---------------------------------------------------------------]
Bb[---------------------------------------------------------------]
Gb[---------------------------------------------------------------]
Db[---------------------------------------------------------------]
Ab[---2222222222-----------------------555555-444444--------------]
Eb[--------------3333333333-2222222222----------------------------]

Trompet tune under this riff goes:
Db[---------2--------------------------------]
Ab[---2--5-----5--4-5-4----------------------]
Eb[----------------------2--5----------------]




(2.03-2.40)-Riff 2......



(2.41-3.19)-Riff 3......



(3.20-4.00)-Riff 4(Accoustic)
Eb[-------------------------------------------------]
Bb[---------------------------------5--7/8----------]
Gb[-------4-4--2-2^4--2-------------4--6/7----------]
Db[-------4-4--2-2^4--2--5-4-4/5-5------------------]
Ab[----2-----------------5-4-4/5-5------------------]
Eb[-------------------------------------------------]



(4.01-4.47)-Riff 5:
Eb[-------------------------------------------------]
Bb[-------------------------------------------------]
Gb[-------------------------------------------------]
Db[-----11----11--12--11-----12---------------------]
Ab[-----9--12--9--10--9--12--10---------------------]
Eb[--------10------------10-------------------------]

Trompet tune:
Db[----------------------------------9--------------]
Ab[------9-----9--9--10-9----9-----9---12-10--------]
Eb[---------10------------------10------------------]

^^^